Cabeçalho

Destaques

Homem-Aranha Ultimate



Enredo: Ultimate Spider-Man é uma série de histórias do famoso super-herói Homem-Aranha publicada pela Marvel Comics.

Foi a primeira série da linha Ultimate Marvel a ser publicada. Nesta série foi feita uma reescrita dos heróis clássicos da Marvel para os fãs do século XXI, com uma história nova, embora, claro, com semelhanças e referências aos originais dos anos 60.

Lançamento: 2000
Status: Terminada
Edições: 175
Anuais e Especiais abaixo

Clique nas capas para baixar

              1-----------------------2-----------------------3----------------------4

                 5-----------------------6-----------------------7----------------------8

                   9----------------------10-----------------------11----------------------12

                  13-----------------------14-----------------------15----------------------16

            17-----------------------18-----------------------19----------------------20

            21-----------------------22-----------------------23----------------------24
 
            25-----------------------26-----------------------27----------------------28

          29-----------------------30-----------------------31----------------------32
           33-----------------------34-----------------------35----------------------36
           37-----------------------38-----------------------39----------------------40
          41-----------------------42-----------------------43----------------------44
          45-----------------------46-----------------------47----------------------48
           49-----------------------50-----------------------51----------------------52
        53-----------------------54-----------------------55----------------------56
       57-----------------------58-----------------------59----------------------60
 
61---------------------62----------------------63---------------------64
65----------------------66----------------------67---------------------68
69----------------------70----------------------71---------------------72

73----------------------74----------------------75---------------------76

77----------------------78----------------------79--------------------80

81----------------------82----------------------83---------------------84

85----------------------86----------------------87---------------------88

89----------------------90----------------------91---------------------92

93----------------------94----------------------95---------------------96

97----------------------98----------------------99


100


101---------------------102---------------------103--------------------104

105---------------------106-----------------107--------------------108

109---------------------110---------------------111--------------------112

113---------------------114---------------------115--------------------116

117---------------------118---------------------119--------------------120

121---------------------122---------------------123--------------------124

125---------------------126-----------------127--------------------128

129---------------------130--------------------131--------------------132

133

Ultimate Comics Spider-Man V2 (2009)


1
2---------------------3--------------------4--------------------5
6---------------------7--------------------8--------------------9
10---------------------11--------------------12--------------------13
14---------------------15

Retorno à numeração original (2011)



150

151---------------------152--------------------153--------------------154
155---------------------156--------------------157--------------------158
159



160


Anuais e Especiais

Ultimate Spider-Man 0,5



Homem-Aranha Ultimate #100 Capas Alternativas


Anuais


1---------------------2--------------------3

Ultimate Spider-Man Super Special



Ultimato - Ultimate Homem-Aranha: Réquiem


      




Os arquivos estão no formato CBR,que foi feito especialmente para ler quadrinhos.Para ler,baixe o programa CDisplay.Para baixá-lo,clique aqui: CDisplay Download




Boa leitura ;)

22 comentários:

  1. Olá,

    Faltam algumas:

    Ultimate Comics Spider-Man #10 V2 (2010) - no lugar tá a #15
    Ultimate Spider-Man 097 - sem link
    Ultimate Spider-Man 110 - no lugar tá o link da # 111 (repetido)
    Ultimate Spider-Man 116 - sem link

    Espero ter ajudado com o feedback.

    Obrigado pelos links, o seu blog é muito bom. ;)

    ResponderExcluir
    Respostas
    1. Valeu! Qualquer erro é só escrever e eu correrei Obrigado pelo feedback e continue no blog ;)

      Excluir
  2. Ultimate Spider-Man 110 - no lugar tá o link da # 111

    ResponderExcluir
  3. Parabéns pelo Trabalho cara... muito Obrigado

    ResponderExcluir
  4. ultimate comics v2 #14 no lugar ta a #13
    muito bom trabalho!

    ResponderExcluir
  5. Finalmente encontrei as que estavam faltando!!
    Parabéns pelo blog!

    ResponderExcluir
  6. PARABÉNS mais uma vez.
    Amei sua organização.
    Abraços.

    ResponderExcluir
  7. Este comentário foi removido pelo autor.

    ResponderExcluir
  8. Obrigado! Muito boa a qualidade! Perfeito!

    ResponderExcluir
  9. a Ultimate Comics Spider-Man #13 tá duplicada, e ocupando o espaço da #14

    ResponderExcluir
  10. adoro seu site vou baixar tudo aki sou um fan de spider man vlw!!!!

    ResponderExcluir
  11. Edição 110 tá redirecionando pra uma outra revista (025 - Aranhas Escarlates, algo assim).

    ResponderExcluir
  12. Tinha certeza que a Hq do miles Morales estava na versão do Ultimate , um dia desses eu vi a Hq dele aqui, alguém me ajuda??

    ResponderExcluir
  13. Na parte dos v2 (2009), o #14 ta como o #13, ficando dois #13 e nenhum #14

    ResponderExcluir
  14. O link para baixar a edição 110 está errado e está abrindo Aranhas Escarlates...

    ResponderExcluir
  15. amigo, a 110 esta errada, esta direcionando para a edição 025 da aranhas escarlates

    ResponderExcluir